ISO-10303-21;
HEADER;
/* Generated by software containing ST-Developer
 * from STEP Tools, Inc. (www.steptools.com) 
 */

FILE_DESCRIPTION(
/* description */ (''),
/* implementation_level */ '2;1');

FILE_NAME(
/* name */ 
'C:/Users/NexxCat/Documents/GitHub/lab.ratrig.com/cad/HW2948WC-Ball Be
aring - 695ZZ.step',
/* time_stamp */ '2022-09-16T14:55:54+01:00',
/* author */ (''),
/* organization */ (''),
/* preprocessor_version */ 'ST-DEVELOPER v19',
/* originating_system */ 'Autodesk Translation Framework v11.7.0.108',
/* authorisation */ '');

FILE_SCHEMA (('AUTOMOTIVE_DESIGN { 1 0 10303 214 3 1 1 }'));
ENDSEC;

DATA;
#10=MECHANICAL_DESIGN_GEOMETRIC_PRESENTATION_REPRESENTATION('',(#14,#15,
#16),#507);
#11=SHAPE_REPRESENTATION_RELATIONSHIP('SRR','None',#514,#12);
#12=ADVANCED_BREP_SHAPE_REPRESENTATION('',(#13),#506);
#13=MANIFOLD_SOLID_BREP('Body1',#279);
#14=STYLED_ITEM('',(#524),#277);
#15=STYLED_ITEM('',(#524),#278);
#16=STYLED_ITEM('',(#523),#13);
#17=CYLINDRICAL_SURFACE('',#298,6.5);
#18=CYLINDRICAL_SURFACE('',#302,5.75);
#19=CYLINDRICAL_SURFACE('',#309,2.5);
#20=CYLINDRICAL_SURFACE('',#313,3.25);
#21=CYLINDRICAL_SURFACE('',#321,3.25);
#22=CYLINDRICAL_SURFACE('',#328,5.75);
#23=FACE_BOUND('',#57,.T.);
#24=FACE_BOUND('',#63,.T.);
#25=FACE_BOUND('',#69,.T.);
#26=FACE_BOUND('',#74,.T.);
#27=FACE_BOUND('',#78,.T.);
#28=FACE_BOUND('',#80,.T.);
#29=PLANE('',#296);
#30=PLANE('',#307);
#31=PLANE('',#317);
#32=PLANE('',#326);
#33=PLANE('',#331);
#34=PLANE('',#332);
#35=FACE_OUTER_BOUND('',#55,.T.);
#36=FACE_OUTER_BOUND('',#56,.T.);
#37=FACE_OUTER_BOUND('',#58,.T.);
#38=FACE_OUTER_BOUND('',#59,.T.);
#39=FACE_OUTER_BOUND('',#60,.T.);
#40=FACE_OUTER_BOUND('',#61,.T.);
#41=FACE_OUTER_BOUND('',#62,.T.);
#42=FACE_OUTER_BOUND('',#64,.T.);
#43=FACE_OUTER_BOUND('',#65,.T.);
#44=FACE_OUTER_BOUND('',#66,.T.);
#45=FACE_OUTER_BOUND('',#67,.T.);
#46=FACE_OUTER_BOUND('',#68,.T.);
#47=FACE_OUTER_BOUND('',#70,.T.);
#48=FACE_OUTER_BOUND('',#71,.T.);
#49=FACE_OUTER_BOUND('',#72,.T.);
#50=FACE_OUTER_BOUND('',#73,.T.);
#51=FACE_OUTER_BOUND('',#75,.T.);
#52=FACE_OUTER_BOUND('',#76,.T.);
#53=FACE_OUTER_BOUND('',#77,.T.);
#54=FACE_OUTER_BOUND('',#79,.T.);
#55=EDGE_LOOP('',(#183,#184,#185,#186));
#56=EDGE_LOOP('',(#187));
#57=EDGE_LOOP('',(#188));
#58=EDGE_LOOP('',(#189,#190,#191,#192));
#59=EDGE_LOOP('',(#193,#194,#195,#196));
#60=EDGE_LOOP('',(#197,#198,#199,#200));
#61=EDGE_LOOP('',(#201,#202,#203,#204));
#62=EDGE_LOOP('',(#205));
#63=EDGE_LOOP('',(#206));
#64=EDGE_LOOP('',(#207,#208,#209,#210));
#65=EDGE_LOOP('',(#211,#212,#213,#214));
#66=EDGE_LOOP('',(#215,#216,#217,#218));
#67=EDGE_LOOP('',(#219,#220,#221,#222));
#68=EDGE_LOOP('',(#223));
#69=EDGE_LOOP('',(#224));
#70=EDGE_LOOP('',(#225,#226,#227,#228));
#71=EDGE_LOOP('',(#229,#230,#231,#232));
#72=EDGE_LOOP('',(#233,#234,#235,#236));
#73=EDGE_LOOP('',(#237));
#74=EDGE_LOOP('',(#238));
#75=EDGE_LOOP('',(#239,#240,#241,#242));
#76=EDGE_LOOP('',(#243,#244,#245,#246));
#77=EDGE_LOOP('',(#247));
#78=EDGE_LOOP('',(#248));
#79=EDGE_LOOP('',(#249));
#80=EDGE_LOOP('',(#250));
#81=LINE('',#434,#95);
#82=LINE('',#442,#96);
#83=LINE('',#445,#97);
#84=LINE('',#450,#98);
#85=LINE('',#455,#99);
#86=LINE('',#463,#100);
#87=LINE('',#466,#101);
#88=LINE('',#471,#102);
#89=LINE('',#475,#103);
#90=LINE('',#481,#104);
#91=LINE('',#485,#105);
#92=LINE('',#491,#106);
#93=LINE('',#498,#107);
#94=LINE('',#501,#108);
#95=VECTOR('',#339,6.4375);
#96=VECTOR('',#350,6.5);
#97=VECTOR('',#353,5.8125);
#98=VECTOR('',#360,5.75);
#99=VECTOR('',#365,2.5625);
#100=VECTOR('',#376,2.5);
#101=VECTOR('',#379,3.1875);
#102=VECTOR('',#386,3.25);
#103=VECTOR('',#391,2.5625);
#104=VECTOR('',#398,3.1875);
#105=VECTOR('',#403,3.25);
#106=VECTOR('',#410,5.8125);
#107=VECTOR('',#419,5.75);
#108=VECTOR('',#424,6.4375);
#109=CIRCLE('',#294,6.375);
#110=CIRCLE('',#295,6.5);
#111=CIRCLE('',#297,5.875);
#112=CIRCLE('',#299,6.5);
#113=CIRCLE('',#301,5.75);
#114=CIRCLE('',#303,5.75);
#115=CIRCLE('',#305,2.625);
#116=CIRCLE('',#306,2.5);
#117=CIRCLE('',#308,3.125);
#118=CIRCLE('',#310,2.5);
#119=CIRCLE('',#312,3.25);
#120=CIRCLE('',#314,3.25);
#121=CIRCLE('',#316,2.625);
#122=CIRCLE('',#318,3.125);
#123=CIRCLE('',#320,3.25);
#124=CIRCLE('',#322,3.25);
#125=CIRCLE('',#324,5.875);
#126=CIRCLE('',#325,5.75);
#127=CIRCLE('',#327,6.375);
#128=CIRCLE('',#329,5.75);
#129=VERTEX_POINT('',#431);
#130=VERTEX_POINT('',#433);
#131=VERTEX_POINT('',#437);
#132=VERTEX_POINT('',#440);
#133=VERTEX_POINT('',#444);
#134=VERTEX_POINT('',#448);
#135=VERTEX_POINT('',#452);
#136=VERTEX_POINT('',#454);
#137=VERTEX_POINT('',#458);
#138=VERTEX_POINT('',#461);
#139=VERTEX_POINT('',#465);
#140=VERTEX_POINT('',#469);
#141=VERTEX_POINT('',#473);
#142=VERTEX_POINT('',#477);
#143=VERTEX_POINT('',#480);
#144=VERTEX_POINT('',#484);
#145=VERTEX_POINT('',#488);
#146=VERTEX_POINT('',#490);
#147=VERTEX_POINT('',#494);
#148=VERTEX_POINT('',#497);
#149=EDGE_CURVE('',#129,#129,#109,.T.);
#150=EDGE_CURVE('',#129,#130,#81,.T.);
#151=EDGE_CURVE('',#130,#130,#110,.T.);
#152=EDGE_CURVE('',#131,#131,#111,.T.);
#153=EDGE_CURVE('',#132,#132,#112,.T.);
#154=EDGE_CURVE('',#132,#130,#82,.T.);
#155=EDGE_CURVE('',#131,#133,#83,.T.);
#156=EDGE_CURVE('',#133,#133,#113,.T.);
#157=EDGE_CURVE('',#134,#134,#114,.T.);
#158=EDGE_CURVE('',#134,#133,#84,.T.);
#159=EDGE_CURVE('',#135,#135,#115,.T.);
#160=EDGE_CURVE('',#135,#136,#85,.T.);
#161=EDGE_CURVE('',#136,#136,#116,.T.);
#162=EDGE_CURVE('',#137,#137,#117,.T.);
#163=EDGE_CURVE('',#138,#138,#118,.T.);
#164=EDGE_CURVE('',#138,#136,#86,.T.);
#165=EDGE_CURVE('',#137,#139,#87,.T.);
#166=EDGE_CURVE('',#139,#139,#119,.T.);
#167=EDGE_CURVE('',#140,#140,#120,.T.);
#168=EDGE_CURVE('',#140,#139,#88,.T.);
#169=EDGE_CURVE('',#141,#141,#121,.T.);
#170=EDGE_CURVE('',#141,#138,#89,.T.);
#171=EDGE_CURVE('',#142,#142,#122,.T.);
#172=EDGE_CURVE('',#142,#143,#90,.T.);
#173=EDGE_CURVE('',#143,#143,#123,.T.);
#174=EDGE_CURVE('',#143,#144,#91,.T.);
#175=EDGE_CURVE('',#144,#144,#124,.T.);
#176=EDGE_CURVE('',#145,#145,#125,.T.);
#177=EDGE_CURVE('',#145,#146,#92,.T.);
#178=EDGE_CURVE('',#146,#146,#126,.T.);
#179=EDGE_CURVE('',#147,#147,#127,.T.);
#180=EDGE_CURVE('',#146,#148,#93,.T.);
#181=EDGE_CURVE('',#148,#148,#128,.T.);
#182=EDGE_CURVE('',#147,#132,#94,.T.);
#183=ORIENTED_EDGE('',*,*,#149,.T.);
#184=ORIENTED_EDGE('',*,*,#150,.T.);
#185=ORIENTED_EDGE('',*,*,#151,.T.);
#186=ORIENTED_EDGE('',*,*,#150,.F.);
#187=ORIENTED_EDGE('',*,*,#149,.F.);
#188=ORIENTED_EDGE('',*,*,#152,.F.);
#189=ORIENTED_EDGE('',*,*,#153,.F.);
#190=ORIENTED_EDGE('',*,*,#154,.T.);
#191=ORIENTED_EDGE('',*,*,#151,.F.);
#192=ORIENTED_EDGE('',*,*,#154,.F.);
#193=ORIENTED_EDGE('',*,*,#152,.T.);
#194=ORIENTED_EDGE('',*,*,#155,.T.);
#195=ORIENTED_EDGE('',*,*,#156,.T.);
#196=ORIENTED_EDGE('',*,*,#155,.F.);
#197=ORIENTED_EDGE('',*,*,#157,.F.);
#198=ORIENTED_EDGE('',*,*,#158,.T.);
#199=ORIENTED_EDGE('',*,*,#156,.F.);
#200=ORIENTED_EDGE('',*,*,#158,.F.);
#201=ORIENTED_EDGE('',*,*,#159,.T.);
#202=ORIENTED_EDGE('',*,*,#160,.T.);
#203=ORIENTED_EDGE('',*,*,#161,.T.);
#204=ORIENTED_EDGE('',*,*,#160,.F.);
#205=ORIENTED_EDGE('',*,*,#162,.F.);
#206=ORIENTED_EDGE('',*,*,#159,.F.);
#207=ORIENTED_EDGE('',*,*,#163,.F.);
#208=ORIENTED_EDGE('',*,*,#164,.T.);
#209=ORIENTED_EDGE('',*,*,#161,.F.);
#210=ORIENTED_EDGE('',*,*,#164,.F.);
#211=ORIENTED_EDGE('',*,*,#162,.T.);
#212=ORIENTED_EDGE('',*,*,#165,.T.);
#213=ORIENTED_EDGE('',*,*,#166,.T.);
#214=ORIENTED_EDGE('',*,*,#165,.F.);
#215=ORIENTED_EDGE('',*,*,#167,.F.);
#216=ORIENTED_EDGE('',*,*,#168,.T.);
#217=ORIENTED_EDGE('',*,*,#166,.F.);
#218=ORIENTED_EDGE('',*,*,#168,.F.);
#219=ORIENTED_EDGE('',*,*,#169,.T.);
#220=ORIENTED_EDGE('',*,*,#170,.T.);
#221=ORIENTED_EDGE('',*,*,#163,.T.);
#222=ORIENTED_EDGE('',*,*,#170,.F.);
#223=ORIENTED_EDGE('',*,*,#171,.F.);
#224=ORIENTED_EDGE('',*,*,#169,.F.);
#225=ORIENTED_EDGE('',*,*,#171,.T.);
#226=ORIENTED_EDGE('',*,*,#172,.T.);
#227=ORIENTED_EDGE('',*,*,#173,.T.);
#228=ORIENTED_EDGE('',*,*,#172,.F.);
#229=ORIENTED_EDGE('',*,*,#173,.F.);
#230=ORIENTED_EDGE('',*,*,#174,.T.);
#231=ORIENTED_EDGE('',*,*,#175,.F.);
#232=ORIENTED_EDGE('',*,*,#174,.F.);
#233=ORIENTED_EDGE('',*,*,#176,.T.);
#234=ORIENTED_EDGE('',*,*,#177,.T.);
#235=ORIENTED_EDGE('',*,*,#178,.T.);
#236=ORIENTED_EDGE('',*,*,#177,.F.);
#237=ORIENTED_EDGE('',*,*,#179,.F.);
#238=ORIENTED_EDGE('',*,*,#176,.F.);
#239=ORIENTED_EDGE('',*,*,#178,.F.);
#240=ORIENTED_EDGE('',*,*,#180,.T.);
#241=ORIENTED_EDGE('',*,*,#181,.F.);
#242=ORIENTED_EDGE('',*,*,#180,.F.);
#243=ORIENTED_EDGE('',*,*,#179,.T.);
#244=ORIENTED_EDGE('',*,*,#182,.T.);
#245=ORIENTED_EDGE('',*,*,#153,.T.);
#246=ORIENTED_EDGE('',*,*,#182,.F.);
#247=ORIENTED_EDGE('',*,*,#157,.T.);
#248=ORIENTED_EDGE('',*,*,#167,.T.);
#249=ORIENTED_EDGE('',*,*,#181,.T.);
#250=ORIENTED_EDGE('',*,*,#175,.T.);
#251=CONICAL_SURFACE('',#293,6.4375,0.785398163397446);
#252=CONICAL_SURFACE('',#300,5.8125,0.785398163397446);
#253=CONICAL_SURFACE('',#304,2.5625,0.785398163397448);
#254=CONICAL_SURFACE('',#311,3.1875,0.785398163397448);
#255=CONICAL_SURFACE('',#315,2.5625,0.785398163397448);
#256=CONICAL_SURFACE('',#319,3.1875,0.785398163397448);
#257=CONICAL_SURFACE('',#323,5.8125,0.785398163397446);
#258=CONICAL_SURFACE('',#330,6.4375,0.785398163397446);
#259=ADVANCED_FACE('',(#35),#251,.T.);
#260=ADVANCED_FACE('',(#36,#23),#29,.F.);
#261=ADVANCED_FACE('',(#37),#17,.T.);
#262=ADVANCED_FACE('',(#38),#252,.F.);
#263=ADVANCED_FACE('',(#39),#18,.F.);
#264=ADVANCED_FACE('',(#40),#253,.F.);
#265=ADVANCED_FACE('',(#41,#24),#30,.F.);
#266=ADVANCED_FACE('',(#42),#19,.F.);
#267=ADVANCED_FACE('',(#43),#254,.T.);
#268=ADVANCED_FACE('',(#44),#20,.T.);
#269=ADVANCED_FACE('',(#45),#255,.F.);
#270=ADVANCED_FACE('',(#46,#25),#31,.T.);
#271=ADVANCED_FACE('',(#47),#256,.T.);
#272=ADVANCED_FACE('',(#48),#21,.T.);
#273=ADVANCED_FACE('',(#49),#257,.F.);
#274=ADVANCED_FACE('',(#50,#26),#32,.T.);
#275=ADVANCED_FACE('',(#51),#22,.F.);
#276=ADVANCED_FACE('',(#52),#258,.T.);
#277=ADVANCED_FACE('',(#53,#27),#33,.F.);
#278=ADVANCED_FACE('',(#54,#28),#34,.T.);
#279=CLOSED_SHELL('',(#259,#260,#261,#262,#263,#264,#265,#266,#267,#268,
#269,#270,#271,#272,#273,#274,#275,#276,#277,#278));
#280=DERIVED_UNIT_ELEMENT(#282,1.);
#281=DERIVED_UNIT_ELEMENT(#509,-3.);
#282=(
MASS_UNIT()
NAMED_UNIT(*)
SI_UNIT(.KILO.,.GRAM.)
);
#283=DERIVED_UNIT((#280,#281));
#284=MEASURE_REPRESENTATION_ITEM('density measure',
POSITIVE_RATIO_MEASURE(8000.),#283);
#285=PROPERTY_DEFINITION_REPRESENTATION(#290,#287);
#286=PROPERTY_DEFINITION_REPRESENTATION(#291,#288);
#287=REPRESENTATION('material name',(#289),#506);
#288=REPRESENTATION('density',(#284),#506);
#289=DESCRIPTIVE_REPRESENTATION_ITEM('Stainless Steel',
'Stainless Steel');
#290=PROPERTY_DEFINITION('material property','material name',#516);
#291=PROPERTY_DEFINITION('material property','density of part',#516);
#292=AXIS2_PLACEMENT_3D('placement',#429,#333,#334);
#293=AXIS2_PLACEMENT_3D('',#430,#335,#336);
#294=AXIS2_PLACEMENT_3D('',#432,#337,#338);
#295=AXIS2_PLACEMENT_3D('',#435,#340,#341);
#296=AXIS2_PLACEMENT_3D('',#436,#342,#343);
#297=AXIS2_PLACEMENT_3D('',#438,#344,#345);
#298=AXIS2_PLACEMENT_3D('',#439,#346,#347);
#299=AXIS2_PLACEMENT_3D('',#441,#348,#349);
#300=AXIS2_PLACEMENT_3D('',#443,#351,#352);
#301=AXIS2_PLACEMENT_3D('',#446,#354,#355);
#302=AXIS2_PLACEMENT_3D('',#447,#356,#357);
#303=AXIS2_PLACEMENT_3D('',#449,#358,#359);
#304=AXIS2_PLACEMENT_3D('',#451,#361,#362);
#305=AXIS2_PLACEMENT_3D('',#453,#363,#364);
#306=AXIS2_PLACEMENT_3D('',#456,#366,#367);
#307=AXIS2_PLACEMENT_3D('',#457,#368,#369);
#308=AXIS2_PLACEMENT_3D('',#459,#370,#371);
#309=AXIS2_PLACEMENT_3D('',#460,#372,#373);
#310=AXIS2_PLACEMENT_3D('',#462,#374,#375);
#311=AXIS2_PLACEMENT_3D('',#464,#377,#378);
#312=AXIS2_PLACEMENT_3D('',#467,#380,#381);
#313=AXIS2_PLACEMENT_3D('',#468,#382,#383);
#314=AXIS2_PLACEMENT_3D('',#470,#384,#385);
#315=AXIS2_PLACEMENT_3D('',#472,#387,#388);
#316=AXIS2_PLACEMENT_3D('',#474,#389,#390);
#317=AXIS2_PLACEMENT_3D('',#476,#392,#393);
#318=AXIS2_PLACEMENT_3D('',#478,#394,#395);
#319=AXIS2_PLACEMENT_3D('',#479,#396,#397);
#320=AXIS2_PLACEMENT_3D('',#482,#399,#400);
#321=AXIS2_PLACEMENT_3D('',#483,#401,#402);
#322=AXIS2_PLACEMENT_3D('',#486,#404,#405);
#323=AXIS2_PLACEMENT_3D('',#487,#406,#407);
#324=AXIS2_PLACEMENT_3D('',#489,#408,#409);
#325=AXIS2_PLACEMENT_3D('',#492,#411,#412);
#326=AXIS2_PLACEMENT_3D('',#493,#413,#414);
#327=AXIS2_PLACEMENT_3D('',#495,#415,#416);
#328=AXIS2_PLACEMENT_3D('',#496,#417,#418);
#329=AXIS2_PLACEMENT_3D('',#499,#420,#421);
#330=AXIS2_PLACEMENT_3D('',#500,#422,#423);
#331=AXIS2_PLACEMENT_3D('',#502,#425,#426);
#332=AXIS2_PLACEMENT_3D('',#503,#427,#428);
#333=DIRECTION('axis',(0.,0.,1.));
#334=DIRECTION('refdir',(1.,0.,0.));
#335=DIRECTION('center_axis',(0.,0.,1.));
#336=DIRECTION('ref_axis',(1.,0.,0.));
#337=DIRECTION('center_axis',(0.,0.,1.));
#338=DIRECTION('ref_axis',(1.,0.,0.));
#339=DIRECTION('',(-0.707106781186546,8.65956056235491E-17,0.707106781186549));
#340=DIRECTION('center_axis',(0.,0.,-1.));
#341=DIRECTION('ref_axis',(1.,0.,0.));
#342=DIRECTION('center_axis',(0.,0.,1.));
#343=DIRECTION('ref_axis',(1.,0.,0.));
#344=DIRECTION('center_axis',(0.,0.,-1.));
#345=DIRECTION('ref_axis',(1.,0.,0.));
#346=DIRECTION('center_axis',(0.,0.,1.));
#347=DIRECTION('ref_axis',(1.,0.,0.));
#348=DIRECTION('center_axis',(0.,0.,1.));
#349=DIRECTION('ref_axis',(1.,0.,0.));
#350=DIRECTION('',(0.,0.,-1.));
#351=DIRECTION('center_axis',(0.,0.,-1.));
#352=DIRECTION('ref_axis',(1.,0.,0.));
#353=DIRECTION('',(0.707106781186546,-8.65956056235491E-17,0.707106781186549));
#354=DIRECTION('center_axis',(0.,0.,1.));
#355=DIRECTION('ref_axis',(1.,0.,0.));
#356=DIRECTION('center_axis',(0.,0.,1.));
#357=DIRECTION('ref_axis',(1.,0.,0.));
#358=DIRECTION('center_axis',(0.,0.,-1.));
#359=DIRECTION('ref_axis',(1.,0.,0.));
#360=DIRECTION('',(0.,0.,-1.));
#361=DIRECTION('center_axis',(0.,0.,-1.));
#362=DIRECTION('ref_axis',(1.,0.,0.));
#363=DIRECTION('center_axis',(0.,0.,-1.));
#364=DIRECTION('ref_axis',(1.,0.,0.));
#365=DIRECTION('',(0.707106781186548,-8.65956056235493E-17,0.707106781186548));
#366=DIRECTION('center_axis',(0.,0.,1.));
#367=DIRECTION('ref_axis',(1.,0.,0.));
#368=DIRECTION('center_axis',(0.,0.,1.));
#369=DIRECTION('ref_axis',(1.,0.,0.));
#370=DIRECTION('center_axis',(0.,0.,1.));
#371=DIRECTION('ref_axis',(1.,0.,0.));
#372=DIRECTION('center_axis',(0.,0.,1.));
#373=DIRECTION('ref_axis',(1.,0.,0.));
#374=DIRECTION('center_axis',(0.,0.,-1.));
#375=DIRECTION('ref_axis',(1.,0.,0.));
#376=DIRECTION('',(0.,0.,-1.));
#377=DIRECTION('center_axis',(0.,0.,1.));
#378=DIRECTION('ref_axis',(1.,0.,0.));
#379=DIRECTION('',(-0.707106781186547,8.65956056235493E-17,0.707106781186547));
#380=DIRECTION('center_axis',(0.,0.,-1.));
#381=DIRECTION('ref_axis',(1.,0.,0.));
#382=DIRECTION('center_axis',(0.,0.,1.));
#383=DIRECTION('ref_axis',(1.,0.,0.));
#384=DIRECTION('center_axis',(0.,0.,1.));
#385=DIRECTION('ref_axis',(1.,0.,0.));
#386=DIRECTION('',(0.,0.,-1.));
#387=DIRECTION('center_axis',(0.,0.,1.));
#388=DIRECTION('ref_axis',(1.,0.,0.));
#389=DIRECTION('center_axis',(0.,0.,1.));
#390=DIRECTION('ref_axis',(1.,0.,0.));
#391=DIRECTION('',(0.707106781186548,8.65956056235493E-17,-0.707106781186548));
#392=DIRECTION('center_axis',(0.,0.,1.));
#393=DIRECTION('ref_axis',(1.,0.,0.));
#394=DIRECTION('center_axis',(0.,0.,-1.));
#395=DIRECTION('ref_axis',(1.,0.,0.));
#396=DIRECTION('center_axis',(0.,0.,-1.));
#397=DIRECTION('ref_axis',(1.,0.,0.));
#398=DIRECTION('',(-0.707106781186547,-8.65956056235493E-17,-0.707106781186547));
#399=DIRECTION('center_axis',(0.,0.,1.));
#400=DIRECTION('ref_axis',(1.,0.,0.));
#401=DIRECTION('center_axis',(0.,0.,1.));
#402=DIRECTION('ref_axis',(1.,0.,0.));
#403=DIRECTION('',(0.,0.,-1.));
#404=DIRECTION('center_axis',(0.,0.,-1.));
#405=DIRECTION('ref_axis',(1.,0.,0.));
#406=DIRECTION('center_axis',(0.,0.,1.));
#407=DIRECTION('ref_axis',(1.,0.,0.));
#408=DIRECTION('center_axis',(0.,0.,1.));
#409=DIRECTION('ref_axis',(1.,0.,0.));
#410=DIRECTION('',(0.707106781186546,8.65956056235491E-17,-0.707106781186549));
#411=DIRECTION('center_axis',(0.,0.,-1.));
#412=DIRECTION('ref_axis',(1.,0.,0.));
#413=DIRECTION('center_axis',(0.,0.,1.));
#414=DIRECTION('ref_axis',(1.,0.,0.));
#415=DIRECTION('center_axis',(0.,0.,-1.));
#416=DIRECTION('ref_axis',(1.,0.,0.));
#417=DIRECTION('center_axis',(0.,0.,1.));
#418=DIRECTION('ref_axis',(1.,0.,0.));
#419=DIRECTION('',(0.,0.,-1.));
#420=DIRECTION('center_axis',(0.,0.,1.));
#421=DIRECTION('ref_axis',(1.,0.,0.));
#422=DIRECTION('center_axis',(0.,0.,-1.));
#423=DIRECTION('ref_axis',(1.,0.,0.));
#424=DIRECTION('',(-0.707106781186546,-8.65956056235491E-17,-0.707106781186549));
#425=DIRECTION('center_axis',(0.,0.,1.));
#426=DIRECTION('ref_axis',(1.,0.,0.));
#427=DIRECTION('center_axis',(0.,0.,1.));
#428=DIRECTION('ref_axis',(1.,0.,0.));
#429=CARTESIAN_POINT('',(0.,0.,0.));
#430=CARTESIAN_POINT('Origin',(0.,0.,-1.9375));
#431=CARTESIAN_POINT('',(-6.375,-7.80712334456438E-16,-2.));
#432=CARTESIAN_POINT('Origin',(0.,0.,-2.));
#433=CARTESIAN_POINT('',(-6.5,7.9602041944578E-16,-1.875));
#434=CARTESIAN_POINT('',(-6.4375,7.88366376951109E-16,-1.9375));
#435=CARTESIAN_POINT('Origin',(0.,0.,-1.875));
#436=CARTESIAN_POINT('Origin',(0.,0.,-2.));
#437=CARTESIAN_POINT('',(-5.875,7.1947999449907E-16,-2.));
#438=CARTESIAN_POINT('Origin',(0.,0.,-2.));
#439=CARTESIAN_POINT('Origin',(0.,0.,0.));
#440=CARTESIAN_POINT('',(-6.5,-7.9602041944578E-16,1.875));
#441=CARTESIAN_POINT('Origin',(0.,0.,1.875));
#442=CARTESIAN_POINT('',(-6.5,-7.9602041944578E-16,0.));
#443=CARTESIAN_POINT('Origin',(0.,0.,-1.9375));
#444=CARTESIAN_POINT('',(-5.75,-7.04171909509728E-16,-1.875));
#445=CARTESIAN_POINT('',(-5.8125,7.11825952004399E-16,-1.9375));
#446=CARTESIAN_POINT('Origin',(0.,0.,-1.875));
#447=CARTESIAN_POINT('Origin',(0.,0.,0.));
#448=CARTESIAN_POINT('',(-5.75,-7.04171909509728E-16,-1.75));
#449=CARTESIAN_POINT('Origin',(0.,0.,-1.75));
#450=CARTESIAN_POINT('',(-5.75,-7.04171909509728E-16,0.));
#451=CARTESIAN_POINT('Origin',(0.,0.,-1.9375));
#452=CARTESIAN_POINT('',(-2.625,3.2146978477618E-16,-2.));
#453=CARTESIAN_POINT('Origin',(0.,0.,-2.));
#454=CARTESIAN_POINT('',(-2.5,-3.06161699786838E-16,-1.875));
#455=CARTESIAN_POINT('',(-2.5625,3.13815742281509E-16,-1.9375));
#456=CARTESIAN_POINT('Origin',(0.,0.,-1.875));
#457=CARTESIAN_POINT('Origin',(0.,0.,-2.));
#458=CARTESIAN_POINT('',(-3.125,-3.82702124733548E-16,-2.));
#459=CARTESIAN_POINT('Origin',(0.,0.,-2.));
#460=CARTESIAN_POINT('Origin',(0.,0.,0.));
#461=CARTESIAN_POINT('',(-2.5,3.06161699786838E-16,1.875));
#462=CARTESIAN_POINT('Origin',(0.,0.,1.875));
#463=CARTESIAN_POINT('',(-2.5,-3.06161699786838E-16,0.));
#464=CARTESIAN_POINT('Origin',(0.,0.,-1.9375));
#465=CARTESIAN_POINT('',(-3.25,3.9801020972289E-16,-1.875));
#466=CARTESIAN_POINT('',(-3.1875,3.90356167228219E-16,-1.9375));
#467=CARTESIAN_POINT('Origin',(0.,0.,-1.875));
#468=CARTESIAN_POINT('Origin',(0.,0.,0.));
#469=CARTESIAN_POINT('',(-3.25,-3.9801020972289E-16,-1.75));
#470=CARTESIAN_POINT('Origin',(0.,0.,-1.75));
#471=CARTESIAN_POINT('',(-3.25,-3.9801020972289E-16,0.));
#472=CARTESIAN_POINT('Origin',(0.,0.,1.9375));
#473=CARTESIAN_POINT('',(-2.625,-3.2146978477618E-16,2.));
#474=CARTESIAN_POINT('Origin',(0.,0.,2.));
#475=CARTESIAN_POINT('',(-2.5625,-3.13815742281509E-16,1.9375));
#476=CARTESIAN_POINT('Origin',(0.,0.,2.));
#477=CARTESIAN_POINT('',(-3.125,3.82702124733548E-16,2.));
#478=CARTESIAN_POINT('Origin',(0.,0.,2.));
#479=CARTESIAN_POINT('Origin',(0.,0.,1.9375));
#480=CARTESIAN_POINT('',(-3.25,-3.9801020972289E-16,1.875));
#481=CARTESIAN_POINT('',(-3.1875,-3.90356167228219E-16,1.9375));
#482=CARTESIAN_POINT('Origin',(0.,0.,1.875));
#483=CARTESIAN_POINT('Origin',(0.,0.,0.));
#484=CARTESIAN_POINT('',(-3.25,-3.9801020972289E-16,1.75));
#485=CARTESIAN_POINT('',(-3.25,-3.9801020972289E-16,0.));
#486=CARTESIAN_POINT('Origin',(0.,0.,1.75));
#487=CARTESIAN_POINT('Origin',(0.,0.,1.9375));
#488=CARTESIAN_POINT('',(-5.875,-7.1947999449907E-16,2.));
#489=CARTESIAN_POINT('Origin',(0.,0.,2.));
#490=CARTESIAN_POINT('',(-5.75,7.04171909509728E-16,1.875));
#491=CARTESIAN_POINT('',(-5.8125,-7.11825952004399E-16,1.9375));
#492=CARTESIAN_POINT('Origin',(0.,0.,1.875));
#493=CARTESIAN_POINT('Origin',(0.,0.,2.));
#494=CARTESIAN_POINT('',(-6.375,7.80712334456438E-16,2.));
#495=CARTESIAN_POINT('Origin',(0.,0.,2.));
#496=CARTESIAN_POINT('Origin',(0.,0.,0.));
#497=CARTESIAN_POINT('',(-5.75,-7.04171909509728E-16,1.75));
#498=CARTESIAN_POINT('',(-5.75,-7.04171909509728E-16,0.));
#499=CARTESIAN_POINT('Origin',(0.,0.,1.75));
#500=CARTESIAN_POINT('Origin',(0.,0.,1.9375));
#501=CARTESIAN_POINT('',(-6.4375,-7.88366376951109E-16,1.9375));
#502=CARTESIAN_POINT('Origin',(0.,0.,-1.75));
#503=CARTESIAN_POINT('Origin',(0.,0.,1.75));
#504=UNCERTAINTY_MEASURE_WITH_UNIT(LENGTH_MEASURE(0.01),#508,
'DISTANCE_ACCURACY_VALUE',
'Maximum model space distance between geometric entities at asserted c
onnectivities');
#505=UNCERTAINTY_MEASURE_WITH_UNIT(LENGTH_MEASURE(0.01),#508,
'DISTANCE_ACCURACY_VALUE',
'Maximum model space distance between geometric entities at asserted c
onnectivities');
#506=(
GEOMETRIC_REPRESENTATION_CONTEXT(3)
GLOBAL_UNCERTAINTY_ASSIGNED_CONTEXT((#504))
GLOBAL_UNIT_ASSIGNED_CONTEXT((#508,#510,#511))
REPRESENTATION_CONTEXT('','3D')
);
#507=(
GEOMETRIC_REPRESENTATION_CONTEXT(3)
GLOBAL_UNCERTAINTY_ASSIGNED_CONTEXT((#505))
GLOBAL_UNIT_ASSIGNED_CONTEXT((#508,#510,#511))
REPRESENTATION_CONTEXT('','3D')
);
#508=(
LENGTH_UNIT()
NAMED_UNIT(*)
SI_UNIT(.MILLI.,.METRE.)
);
#509=(
LENGTH_UNIT()
NAMED_UNIT(*)
SI_UNIT($,.METRE.)
);
#510=(
NAMED_UNIT(*)
PLANE_ANGLE_UNIT()
SI_UNIT($,.RADIAN.)
);
#511=(
NAMED_UNIT(*)
SI_UNIT($,.STERADIAN.)
SOLID_ANGLE_UNIT()
);
#512=SHAPE_DEFINITION_REPRESENTATION(#513,#514);
#513=PRODUCT_DEFINITION_SHAPE('',$,#516);
#514=SHAPE_REPRESENTATION('',(#292),#506);
#515=PRODUCT_DEFINITION_CONTEXT('part definition',#520,'design');
#516=PRODUCT_DEFINITION('HW2948WC','Ball Bearing - 695ZZ v1',#517,#515);
#517=PRODUCT_DEFINITION_FORMATION('',$,#522);
#518=PRODUCT_RELATED_PRODUCT_CATEGORY('Ball Bearing - 695ZZ v1',
'Ball Bearing - 695ZZ v1',(#522));
#519=APPLICATION_PROTOCOL_DEFINITION('international standard',
'automotive_design',2009,#520);
#520=APPLICATION_CONTEXT(
'Core Data for Automotive Mechanical Design Process');
#521=PRODUCT_CONTEXT('part definition',#520,'mechanical');
#522=PRODUCT('HW2948WC','Ball Bearing - 695ZZ v1',$,(#521));
#523=PRESENTATION_STYLE_ASSIGNMENT((#525));
#524=PRESENTATION_STYLE_ASSIGNMENT((#526));
#525=SURFACE_STYLE_USAGE(.BOTH.,#527);
#526=SURFACE_STYLE_USAGE(.BOTH.,#528);
#527=SURFACE_SIDE_STYLE('',(#529));
#528=SURFACE_SIDE_STYLE('',(#530));
#529=SURFACE_STYLE_FILL_AREA(#531);
#530=SURFACE_STYLE_FILL_AREA(#532);
#531=FILL_AREA_STYLE('Stainless Steel - Satin',(#533));
#532=FILL_AREA_STYLE('Nickel - Satin',(#534));
#533=FILL_AREA_STYLE_COLOUR('Stainless Steel - Satin',#535);
#534=FILL_AREA_STYLE_COLOUR('Nickel - Satin',#536);
#535=COLOUR_RGB('Stainless Steel - Satin',0.796078431372549,0.796078431372549,
0.796078431372549);
#536=COLOUR_RGB('Nickel - Satin',0.819607843137255,0.8,0.752941176470588);
ENDSEC;
END-ISO-10303-21;
